Farhat Guitar
Online Private Lessons – Contact Me
Prof. Marcos Farhat
+(54 911) 6577-1480

AC/DC| You Shook Me All Night Long
 Estilo:  Hard Rock    
E|------3-----|--------------------|----------|---------|-------------|----------|---------|
B|--------3-6-|--------------------|----------|---------|-------------|-----6-6v-|----8-8v-|
G|-5b7v-------|pb6r5--3b(1/4)------|----------|---------|-------------|-5s7------|7s9------|
D|------------|---------------5---5|-5-3------|---------|-5-----------|----------|---------|
A|------------|-----------------5--|-----5-3v-|---------|---5---------|----------|---------|
E|------------|--------------------|----------|6-3------|-------------|----------|---------|

E|-----------10-----------|----------------------|----------15-15------------------------|
B|---8-10b12===pb12r10-8v-|-8-11b13--10b12-8---8v|-x-18b20v-------18---------------------|
G|-9----------------------|------------------9---|-------------------pb19r17-15b(1/4)----|
D|------------------------|----------------------|------------------------------------17-|
A|------------------------|----------------------|---------------------------------------|
E|------------------------|----------------------|---------------------------------------|

E|----------------------------------------------------------|-----18b20-19v--pb18r17-15-17-|
B|-17-15-------18-------18---------------------17-15-17—15s-|-s15--------------------------|
G|-17-15-17b19----17b19===-pb19r17-15b(1/4)----17-15-17—15s-|------------------------------|
D|------------------------------------------17--------------|------------------------------|
A|----------------------------------------------------------|------------------------------|
E|----------------------------------------------------------|------------------------------|

E|----15|---------15--------------------|-------15----15-15-17b18r17-15v-|
B|-17---|-18b20v-----18-----------------|-15s17----17--------------------|
G|------|---------------19r17-15-17b19v-|--------------------------------|
D|------|-------------------------------|--------------------------------|
A|------|-------------------------------|--------------------------------|
E|------|-------------------------------|--------------------------------|

video
Hide picture