Farhat Guitar
Online Private Lessons – Contact Me
Prof. Marcos Farhat
+(54 911) 6577-1480

Led Zeppelin| Heartbreaker
 Estilo:     
E|----|--------------|------------------|   |----------------|----------------------| 
B|----|--------------|------------------|   |----------------|----------------------| 
G|----|--------------|------------------|   |----------------|----------------------| 
D|----|------0-1-2---|-----------0--1-2-|   |-------2—-3-4---|------------2--3-4----| 
A|----|-0--3b--------|-0-0-0-0-3b-------|   |-2--5b----------|--2-2-2-2-5b----------|   
E|-3b-|-----------3b-|------------------|X4 |-------------5b-|-------------------5b-|X2  
E|----|--------------|------------------|----|
B|----|--------------|------------------|----|
G|----|--------------|------------------|----|
D|----|------0-1-2---|-----------0--1-2-|--0-|
A|----|-0--3b--------|-0-0-0-0-3b-------|--2-|
E|-3b-|-----------3b-|------------------|--3-|
video
Hide picture