Farhat Guitar
Online Private Lessons – Contact Me
Prof. Marcos Farhat
+(54 911) 6577-1480

Chuck Berry| Johnny B. Goode
 Estilo:  Rock and roll    
E|-------------------|---------------------------|---------------------------|------------------|
B|-------------------|---------------------------|---------------------------|------------------|
G|-------------------|---------------------------|---------------------------|------------------|
D|-------------------|---------------------------|---------------------------|8-8-10-8-8-8-10-8-|
A|-8-8-10-8-8-8-10-8-|8-8-10-8-8-8-10-8-8-8-10-8-|8-8-10-8-8-8-10-8-8-8-10-8-|6-6--6-6-6-6--6-6-|
E|-6-6--6-6-6-6--6-6-|6-6--6-6-6-6--6-6-6-6--6-6-|6-6--6-6-6-6--6-6-6-6--6-6-|------------------|

E|-------------------|------------------------------------|------------------------|
B|-------------------|------------------------------------|------------------------|
G|-------------------|------------------------------------|------------------------|
D|-8-8-10-8-8-8-10-8-|------------------------------------|10-10-12-10-10-10-12-10-|
A|-6-6--6-6-6-6--6-6-|8-8-10-8-8-8-10-8-8-8-10-8-8-8-10-8-|-8--8--8--8--8--8--8--8-|
E|-------------------|6-6--6-6-6-6--6-6-6-6--6-6-6-6--6-6-|------------------------|
e|-------------------------|------------------------------------|
B|-------------------------|------------------------------------|
G|-------------------------|------------------------------------|
D|-10-10-12-10-10-10-12-10-|------------------------------------|
A|--8--8--8--8--8--8--8--8-|8-8-10-8-8-8-10-8-8-8-10-8-8-8-10-8-|
E|-------------------------|6-6--6-6-6-6--6-6-6-6--6-6-6-6--6-6-|
video
Hide picture