Farhat Guitar
Online Private Lessons – Contact Me
Prof. Marcos Farhat
+(54 911) 6577-1480

Deep Purple| Highway Star
 Estilo:  Hard Rock, Heavy Metal    
E|--------------|-------------|--------------|---------|-------------|-----------|------------------------------------------|
G|--------------|-------------|--------------|---------|-------------|-----------|------------------------------------------|
B|--5-----------|-5-----------|-5------------|-5---5---|-5-----------|-5---------|------------------------------------------|
D|--5-7-7-7-7-7-|-5-7-7-7-7-7-|-5--7-7-7-7-7-|-5-7-5-7-|-5-7-7-7-7-7-|-5-7-7-7-7-|------------------------------------------|
A|----0-0-0-0-0-|---0-0-0-0-0-|----0-0-0-0-0-|---0---0-|---0-0-0-0-0-|---0-0-0-0-|-0-3-0X-5X-0X--3-0-5--0-3-0-5--8-10-12-15-|
E|--------------|-------------|--------------|---------|-------------|-----------|------------------------------------------|
    PM--------     PM-------      PM-------               PM-------     PM-----

E|--------------------|-----------------------------------|----5-----------------------------------------------| 
B|--------------------|-8b10-8b10--8b10--8b10--8b10--8b10-|--8---8-7-5-----------------------------------------| 
G|-------------17-19--|-----------------------------------|------------8-7-5---7-5-----------------------------|
D|----15-17-19--------|-----------------------------------|------------------7-----7-5---7-5-------------------| 
A|-17-----------------|-----------------------------------|----------------------------7-----7-6-5-3-0---------| 
E|--------------------|-----------------------------------|--------------------------------------------3/5-----|
video
Hide picture