Farhat Guitar
Online Private Lessons – Contact Me
Prof. Marcos Farhat
+(54 911) 6577-1480

Metallica| Master of Puppets
 Estilo:  Heavy Metal    
E|---------------------------------|-----------------|-------------------|
B|---------------------------------|-----------------|-------------------|
G|---------------------------------|-----------------|-------------------|
D|---------------------------------|-----------------|-------------------|
A|-----2-----3-----4-----3-----2-2-|-----2-----3-----|-5s4---5s4---5s4---|
E|-0-1---0-1---0-1---0-1---0-1-----|-0-1---0-1---0-0—|-3s2-0-3s2-0-3s2---| X2 
  PM--   PM--  PM--  PM--  PM--      PM--  PM--   PM--    PM     PM

E|----------------------------|--------------------------|---------------------------------------|----------------------|
B|----------------------------|--------------------------|---------------------------------------|----------------------|
G|----------------------------|--------------------------|---------------------------------------|----------------------|
D|----------------------------|------------------------4-|---------------------------------------|----------------------| 
A|----2----3----4----3----2-2-|----2----3----4----3----2-|----2----3----4----3----2-2-----2----3-|----5s4---5s4---5s4---|
E|-0-1--0-1--0-1--0-1--0-1----|-0-1--0-1--0-1--0-1--0-1--|-0-1--0-1--0-1--0-1--0-1----0-1---0-1--|0-0-3s2-0-3s2-0-3s2---|
  PM--  PM-  PM-  PM-  PM-      PM-  PM-  PM-  PM-  PM-   PM--  PM-  PM-  PM-  PM-    PM-   PM-   PM     PM    PM

E|----------------------------|-------------------------|------------------------------------|--------------------------------------|
B|----------------------------|-------------------------|------------------------------------|--------------------------------------|
G|----------------------------|-------------------------|------------------------------------|--------------------------------------|
D|----------------------------|------------------------4|------------------------------------|--------------------------------------| 
A|----2----3----4----3----2-2-|----2----3----4----3----2|----2----3----4----3----2-2---2----3|----5s4---5s4---5s4-5s4---5s4---5s4-2-|
E|-0-1--0-1--0-1--0-1--0-1----|-0-1--0-1--0-1--0-1--0-1-|-0-1--0-1--0-1--0-1--0-1---0-1--0-1-|0-0-3s2-0-3s2-0-3s2-3s2-0-3s2-0-3s2-0-|
  PM--  PM-  PM-  PM-  PM--     PM-- PM-  PM-  PM-  PM-  PM--  PM-  PM-  PM-  PM-   PM-  PM-  PM-     PM    PM       PM    PM
video
Hide picture