Farhat Guitar
Online Private Lessons – Contact Me
Prof. Marcos Farhat
+(54 911) 6577-1480

Billy Idol| Dancing with Myself
 Estilo:     
e|-0---0---0---------0---0---0---0---0---------0---0---0---0---0---------0---0---0---0---0-----|
B|---5---5---4-5-7-5---5---5---5---5---4-5-7-5---5---5---5---5---4-5-7-5---5---5---5---5-------|
G|---------------------------------------------------------------------------------------------|
D|---------------------------------------------------------------------------------------------|
A|---------------------------------------------------------------------------------------------|
E|---------------------------------------------------------------------------------------------|
e|---------0---0---0---0---0---------0---0---0-----0---0---0-----0---0---0---0---0---------|
B|-4-5-7-5---5---5---5---5---4-5-7-5---5---5---5-4---5---5---5-4---5---5---5---5---4-5-7-5-|
G|-----------------------------------------------------------------------------------------|
D|-----------------------------------------------------------------------------------------|
A|-----------------------------------------------------------------------------------------|
E|-----------------------------------------------------------------------------------------|
video
Hide picture