Farhat Guitar
Online Private Lessons – Contact Me
Prof. Marcos Farhat
+(54 911) 6577-1480

Green Day| Wake Me Up When September Ends
 Estilo:     
E|----------------------|----------------------|----------------------| |--------------------------|
B|------12------12---12-|------12------12---12-|------13------13---13-| |-15-15-15-15-15-15-15-15--|
G|-12-12--12-12----12---|-11-11---11-11---11---|-12-12--12-12----12---| |-12-12-12-12-11-11-11-11--|
D|----------------------|----------------------|----------------------| |--------------------------|
A|----------------------|----------------------|----------------------| |--------------------------|
E|----------------------|----------------------|----------------------| |--------------------------|
E|---------------------|---------------------|---------------------|
B|------12------12--12-|------12-----12---12-|------13------13--13-|
G|-12-12--12-12---12---|-11-11--11-11---11---|-12-12--12-12---12---|
D|---------------------|---------------------|---------------------|
A|---------------------|---------------------|---------------------|
E|---------------------|---------------------|---------------------|
E|------|   |------|   |------|   |------|   |---|
B|-15-15|   |-15-15|   |-15-15|   |-15-15|   |---|
G|-12-12|   |-11-11|   |-12-12|   |-11-11|   |-12|
D|------|   |------|   |------|   |------|   |---|
A|------|   |------|   |------|   |------|   |---|
E|------|x4 |------|x4 |------|x4 |------|x4 |---|
video
Hide picture