Farhat Guitar
Online Private Lessons – Contact Me
Prof. Marcos Farhat
+(54 911) 6577-1480

Guns and Roses| Sweet Child o’ Mine
 Estilo:  Hard Rock    
Eb|-17b19r17---15--14h--15p14-12-|--15-14—15p14p12-11-|-12--14----------------------------------------|
Bb|------------------------------|--------------------|--------15pb17r15-12---------------------------| 
Gb|------------------------------|--------------------|----------------------14pb16r14-12-11/12--9----| 
Db|------------------------------|--------------------|-----------------------------------------------|
Ab|------------------------------|--------------------|-----------------------------------------------|
Eb|------------------------------|--------------------|-----------------------------------------------|

Eb|--------------------------------------------|---------------------------15b17r15--|  
Bb|-------------13---12---13p12s10-10---13b15--|--13--12-12—--12b13r12---------------|
Gb|--11--12-14---------------------------------|-----------------------14------------|
Db|--------------------------------------------|-------------------------------------|
Ab|--------------------------------------------|-------------------------------------|
Eb|--------------------------------------------|-------------------------------------|
Eb|------------|------------------|--------------------|-----------------------| 
Bb|-7b8r7------|-7b8r7------------|--7b8-7-------------|-7b8r7-----------------|
Gb|-------9-9--|-------9-9-9-8s11-|--------9--5-4-5--9-|--------9--9—8s11—-11--|
Db|------------|------------------|--------------------|-----------------------|
Ab|------------|------------------|--------------------|-----------------------|
Eb|------------|------------------|--------------------|-----------------------|
video
Hide picture