Farhat Guitar
Online Private Lessons – Contact Me
Prof. Marcos Farhat
+(54 911) 6577-1480

Pink Floyd| Mother
 Estilo:     
E|-------------------------------------------------|------------------------------------------------------|
B|----13b15=-13b15r13p12--13-----------------------|----------------------------------------13------------|
G|-12-------------------------------------5--—5\4--|-----------------12---14b16—-pb16r14p12---------------|
D|---------------------------14p13-14--------------|-------------/12---12----------------------14p13-14---|
A|------------------------------------5/7---7----5-|-3p2-3==b5r3------------------------------------------|
E|-------------------------------------------------|------------------------------------------------------|
e-|---12b14r12-10-------10b12r10-8-------------------------------|
b-|--x----------------x--------------13p12-13p12-----------------|
g-|-x----------------x----------------------------12-------------|
d-|--------------------------------------------------12—10\9-----| 
a-|----------------------------------------------------------10--|
E-|--------------------------------------------------------------|
video
Hide picture