Farhat Guitar
Online Private Lessons – Contact Me
Prof. Marcos Farhat
+(54 911) 6577-1480

Pink Floyd| Shine on you crazy diamond
 Estilo:  Rock    
e|------------------------------------------------------------------------------------|
B|--------------------3--3-3--3-3--8--6--4--3------------------------6b(8)r6----------|
G|----3---5b(7)r5-----3--3-3--3-3--8--7--5--3--------------------------------5b(7)-6v-|
D|--5---5---------4v--3--3-3--3-3--8--7--5--3--3--------------------------------------|
A|--------------------1--1-1--1-1--6--5--3--1--3--3b(4)r3-----------------------------|
E|---------------------------------------------1----------1v-1s2—3--------------------|

e|-----------------------------13-13-13-10-8s-1---------------------------------------------------|
B|--3--3-3--3-3--8--6--4—-3----13-13-13-10-8s-1---------------------------------------------------|
G|--3--3-3--3-3--8--7--5—-3-------------------------3-5-5b(7)r5v----3-5-5b(7)r5v----3-5-5b(7)r----|
D|--3--3-3--3-3--8--7--5--3—-3-------------------s5---------------4---------------3------------2v-|
A|--1--1-1--1-1--6--5--3--1—-3--------------------------------------------------------------------|
E|---------------------------1--------------------------------------------------------------------|

e|--------------------------0-----------1-------1-----2------|
B|------------------4-----2---2-------3---3-------3-----3----|
G|--------------3-5-3---0-------0---3-------3-------------3v-|
D|-----------s5-------2-----------3-----------0-----4--------|
A|--3-5-5s6v-------------------------------------------------|
E|-----------------------------------------------------------|
video
Hide picture