Farhat Guitar
Online Private Lessons – Contact Me
Prof. Marcos Farhat
+(54 911) 6577-1480

Mago de Oz| Molinos de Viento
 Estilo:     
E|----14--14--14--14--14--17p14--14-12h14-14-|------------12-15----------14-17-15-| 
B|-15----------------------------------------|--13-13-13--------15-15-15----------|
G|-------------------------------------------|------------------------------------| 
D|-------------------------------------------|------------------------------------|
A|-------------------------------------------|------------------------------------| 
E|-------------------------------------------|------------------------------------|
E|-15--15--15--15--15--15--17p15--15--14h15-15-|-----15--15--15--15--15--17p15--15--14h15--15--|
B|---------------------------------------------|-17--------------------------------------------| 
G|---------------------------------------------|-----------------------------------------------| 
D|---------------------------------------------|-----------------------------------------------| 
A|---------------------------------------------|-----------------------------------------------| 
E |---------------------------------------------|-----------------------------------------------|
E|----14--14--14--14--14--17p14--14-12h14-14-|------------12-15----------14-17-|  
B|-15----------------------------------------|--13-13-13--------15-15-15-------|
G|-------------------------------------------|---------------------------------| 
D|-------------------------------------------|---------------------------------|
A|-------------------------------------------|---------------------------------|  
E|-------------------------------------------|---------------------------------|

                            
video
Hide picture