Farhat Guitar
Online Private Lessons – Contact Me
Prof. Marcos Farhat
+(54 911) 6577-1480

Metallica| One
 Estilo:  Heavy Metal    
E||-------------------------------|------------------------------|----------------------------------|------------------------------|
B||-------------------------------|------------------------------|----------------------------------|------------------------------|
G||--9--9--9--7br-----11--11--11--|--9br---------12--12--12--11--|--12--11--9--11----11--9--7--9----|--9--7--6--7----7--6--4--6----|
D||----------------9--------------|---------9--------------------|----------------------------------|------------------------------|
A||-------------------------------|------------------------------|----------------------------------|------------------------------|
E||-------------------------------|------------------------------|----------------------------------|------------------------------|

E||-------------------------------|------------------------------|----------------------------------|------------------------------|
B||-------------------------------|------------------------------|----------------------------------|--10--8--7--8----8--7--5--7---|
G||--9--9--9--7br-----11--11--11--|--9br---------12--12--12--11--|--12--11--9--11----11--9--7--9----|------------------------------|
D||----------------9--------------|---------9--------------------|----------------------------------|------------------------------|
A||-------------------------------|------------------------------|----------------------------------|------------------------------|
E||-------------------------------|------------------------------|----------------------------------|------------------------------|

E||-------------------------------|------------------------------|----------------------------------|------------------------------|
B||-------------------------------|------------------------------|----------------------------------|------------------------------|
G||--9--9--9--7br-----11--11--11--|--9br---------12--12--12--11--|--12--11--9--11----11--9--7--9----|--9--7--6--7----7--6--4--6----|
D||----------------9--------------|---------9--------------------|----------------------------------|------------------------------|
A||-------------------------------|------------------------------|----------------------------------|------------------------------|
E||-------------------------------|------------------------------|----------------------------------|------------------------------|x2 

E||------------------------------|------------------------------|
B||------------------------------|------------------------------|
G||--6--4--2--4----4--2--0--2----|--2--0-----0----0-------------|
D||------------------------------|--------4----------2--0--4----|
A||------------------------------|------------------------------|
E||------------------------------|------------------------------|
video
Hide picture