Farhat Guitar
Online Private Lessons – Contact Me
Prof. Marcos Farhat
+(54 911) 6577-1480

Queen| Need Your Loving Tonight
 Estilo:     
E|-------| |--------|   |---| |---|   |---|   |---|   |----------------------------------|   
B|-------| |--------|   |---| |---|   |---|   |---|   |----------------------------------|    
G|-9--2-4| |----2-4-|   |---| |-6-|   |---|   |---|   |-----9-------9--------6-------6---|      
D|-9--2-4| |-2--2-4-|   |-6-| |-6-|   |-7-|   |-9-|   |-9-9-9-9-9-9-9-9--6-6-6-6-6-6-6-6-|
A|-7--0-2| |-2--0-2-|   |-6-| |-4-|   |-7-|   |-9-|   |-7-7-7-7-7-7-7-7--4-4-4-4-4-4-4-4-|
E|-------| |-0------|X2 |-4-| |---|X8 |-5-|X8 |-7-|X9 |----------------------------------|X3
E|---------------------------------|    |----------------------------| 
B|---------------------------------|    |----------------------------| 
G|---------------------------------|    |----------------------------| 
D|-----7-------7--------9-----9----|    |--9--9-9-9-9-9---2--2-4-4---| 
A|-7-7-7-7-7-7-7-7--9-9-9-9-9-9-9--|    |--7--7-7-7-7-7---0--0-2-2---|
E|-5-5-5-5-5-5-5-5--7-7-7-7-7-7-7--|X2  |----------------------------|

                            
video
Hide picture