Farhat Guitar
Online Private Lessons – Contact Me
Prof. Marcos Farhat
+(54 911) 6577-1480

BEATLES| Come Together
 Estilo:  Pop    
e|----------------------------------------------------------------------------|
b|--13b15-18b20--18b20r18p15-----------------------13b~-15--18b20r18p15-------|
g|---------------------------17b19-10--12b14r12-10----------------------17b19-|
d|----------------------------------------------------------------------------|
a|----------------------------------------------------------------------------|
e|----------------------------------------------------------------------------|
e|-------------------15b17-15b17-15b17r15p13-15b17-17-20b22r20-17-20b22-|
b|--10--13b15r13-10-----------------------------------------------------|
g|----------------------------------------------------------------------|
d|----------------------------------------------------------------------|
a|----------------------------------------------------------------------|
e|----------------------------------------------------------------------|
e|--17-20b22r20-17-20b22--15b17r15-13-15b17----------------------|--------------------------|
b|---------------------------------------------------------13b15-|--18b20-18b20r18p15-------|
g|------------------------------------------10-12b14r12-10-------|--------------------17b19-|
d|---------------------------------------------------------------|--------------------------|
a|---------------------------------------------------------------|--------------------------|
e|---------------------------------------------------------------|--------------------------|
video
Hide picture