Farhat Guitar
Online Private Lessons – Contact Me
Prof. Marcos Farhat
+(54 911) 6577-1480

Foo Fighters| The Pretender
 Estilo:     
e||-------------------------------|
B||-------------------------------|
G||----------------2--------------|
D||--2-X-4-X-5-X-7-2-2-4-X-5-X-7s-|
A||--0-0-0-0-0-0-0-0-0-0-0-0-0-0--|
E||-------------------------------| x6
   
e||-----------------|-----------------|
B||-----------------|-----------------|
G||-----------------|-----------------|
D||--10-10-9-X-7-5-X|-10-10-9-X-7-5-X-|
A||--0--0--0-0-0-0-0|-0--0--0-0-0-0-0-|
E||-----------------|-----------------|x2
   
e||--------------------|------------------|
B||--------------------|------------------|
G||--------------------|------------------|
D||--12-12-10-X-9-10-X-|12-12-10-X-9-10-X-|
A||--0--0--0--0-0-0--0-|0--0--0--0-0-0--0-|
E||--------------------|------------------|x2

e||-------------------|-----------------|
B||-------------------|-----------------|
G||--------12v-14-----|------12v-14-----|
D||--14-14-X---X—-12v-|14-14-X---X—-12v-|
A||--0--0--0---0--0---|0--0--0---0--0---|
E||-------------------|-----------------|x4
video
Hide picture