Farhat Guitar
Online Private Lessons – Contact Me
Prof. Marcos Farhat
+(54 911) 6577-1480

The Doors| Roadhouse Blues
 Estilo:  Blues    
E|--------------------|--------------------------------------|--------------------v----------------------|---------------------|
B|--------------------|--------------------------------------|--------------------|----------------------|---------------------|
G|--------------------|--------------------------------------|--------------------|----------------------|---------------------|
D|-----------2---4--2-|----------2---4--2----2------2---4—-2-|------------2---4-2-|------------2----4--2-|-------------2-----4-|
A|-0-0-3--4----0------|0-0--3--4---0-----------3--4---0------|-0--0--3--4---0-----|-0--0--3--4---0-------|-0--0--3--4-----0----|
E|--------------------|--------------------------------------|--------------------|----------------------|---------------------|
E|-----------------------------------8--8--8--7------|
B|-----------------------------------8--8--8--7------|
G|--8--8--8--8--8--8--8--8--8--8--8--9--9--9--8------|
D|--9--9--9--9--9--9--9--9--9--9--9--10-10-10-9------|
A|--9--9--9--9--9--9--9--9--9--9--9--10-10-10-9------|
E|--7--7--7--7--7--7--7--7--7--7--7--8--8--8--7------|
video
Hide picture