Farhat Guitar
Online Private Lessons – Contact Me
Prof. Marcos Farhat
+(54 911) 6577-1480

Gipsy Kings| Volare
 Estilo:  Flamenco    
E|-----------------------|-----------------------|-----------------------------|--------------------------|
B|---------------------7-|-----------------------|---------------------------10|-9------------------------|
G|-6-8-9--6-8-9--6-8-9---|9p8p6--8p6--4-6p4-6p4--|---9p8-9-11-8-9-11--8-9-11---|---11-11/13\11-9p8----8-9-|
D|-----------------------|-----------------------|-----------------------------|-------------------11-----|
A|-----------------------|-----------------------|-----------------------------|--------------------------|
E|-----------------------|-----------------------|-----------------------------|--------------------------|

 

E|---------------------------------|------------------------|
B|---------------------------------|------------------------|
G|7----7-9p7---------7-9p7---------|4-5p4-7p5p4-5p4-5p4---4-|
D|--10-------10-9-10-------10-9-10-|--------------------7---|
A|---------------------------------|------------------------|
E|---------------------------------|------------------------|
video
Hide picture