Farhat Guitar
Online Private Lessons – Contact Me
Prof. Marcos Farhat
+(54 911) 6577-1480

Metallica| Fade to Black
 Estilo:  Heavy Metal    
E|---------0---------|---------0---------|---------3-----3--3-|-------------------| 
B|-0h1-------------1-|-----1-----------0-|-----3--------------|--------0---1/3----| 
G|-2---2-------0h2---|--0----------0h2---|--0------------2--0-|-0------0---2/4----| 
D|-2-----2---2-------|--2----2---2-------|-------0---0--------|----2--------------| 
A|-0-----------------|--3----------------|--------------------|------2------------| 
E|-------------------|-------------------|--3-----------------|-0-----------------|
E|---------0---------|---------0---------|---------3-----3--3-|-------------------| 
B|-0h1-------------1-|-----1-----------0-|-----3--------------|--------0---1/3----| 
G|-2---2-------0h2---|--0----------0h2---|--0------------2--0-|-0------0---2/4----| 
D|-2-----2---2-------|--2----2---2-------|-------0---0--------|-2--2--------------| 
A|-0-----------------|--3----------------|--------------------|------2------------| 
E|-------------------|-------------------|--3-----------------|-------------------|
video
Hide picture