Farhat Guitar
Online Private Lessons – Contact Me
Prof. Marcos Farhat
+(54 911) 6577-1480

Rolling Stones| Angie
 Estilo:  Acústico    
E|---5-5-5-5-5-5-5-3-0---|------0-----0---3-3-3-----|----0---0------|5-5-5-3-0-----0-------|
B|---5-5-5-5-5-5-5-3-1-1-|--3-3-3-3-3-3---3-3-3-1-1-|1-1-3-1-1------|5-5-5-3-1---3---3---3-|
G|-----------------------|--4-4-4-4-4-4---5-5-4-3-2-|0-0-0-0--------|------------------4-4-|
D|-----------------------|--------------5-5-5-5-3-3-|3-2-0-2--------|----------------------|
A|-0---------------------|--------------------------|3-3-3-3----2-0-|----------------------|
E|-----------------------|0-------------------------|---------------|----------0-----------|

E|-0-------0-----3-3-3-------0-------------|
B|---3---3-------3-3-3-1-1-1-1-1-1---1-1-1-|
G|-----4-----4---5-5-4-3-2-0---0-0---0-0-0-|
D|-------------5-5-5-5-3-3-3---3-0h2-2-2-2-|
A|-------------------------3---3-3---3-3-3-|
E|-----------------------------------------|
video
Hide picture