Farhat Guitar
Online Private Lessons – Contact Me
Prof. Marcos Farhat
+(54 911) 6577-1480

Iron Maiden| Fear of the Dark
 Estilo:  Heavy Metal    
E|-----|   |-----|   |-----|   |-----|   |-----|   |---------| |-----|  
B|-----|   |-----|   |-----|   |-----|   |-----|   |---------| |-----|    
G|-----|   |-----|   |-----|   |-----|   |-----|   |--5-5-7-7| |-----|       
D|---3-|   |---5-|   |---7-|   |---5-|   |---3-|   |-3-3-5-5-| |---7-|  
A|-1---|   |-3---|   |-5---|   |-3---|   |-1---|   |---------| |-5---|      
E|-----|X4 |-----|X4 |-----|X4 |-----|X4 |-----|X4 |---------| |-----|X8  

E|-----|   |-----|   |-----|   |-----|   |-----|   |---------| |-----|   |-----|
B|-----|   |-----|   |-----|   |-----|   |-----|   |---------| |-----|   |-----|
G|-----|   |-----|   |-----|   |-----|   |-----|   |--5-5-7-7| |-----|   |-----|
D|---3-|   |---5-|   |---7-|   |---5-|   |---3-|   |-3-3-5-5-| |--7--|   |-----|
A|-1---|   |-3---|   |-5---|   |-3---|   |-1---|   |---------| |-5---|   |--5--| 
E|-----|X4 |-----|X4 |-----|X4 |-----|X4 |-----|X4 |---------| |-----|X6 |-----|
video
Hide picture