Farhat Guitar
Online Private Lessons – Contact Me
Prof. Marcos Farhat
+(54 911) 6577-1480

Eric Clapton| Tears in Heaven
 Estilo:  Blues    
E|-----|---------------------|--------------------------|-----------------------|--------------------|
B|-----|------2h3p2----5---5-|-2-------2-----2-----2----|--3----3----2-----2----|-0---0----2----3----|
G|-----|---2--------2--4---4-|-2-------2-----2-----2----|--2----2----2-----2----|-1---1----2----4----|
D|-----|---------------------|--------------------------|-----------------------|--------------------|
A|-----|-0-------------------|--------------------------|-----------------------|--------------------|
E|-0h2-|---------------4-4-4-|-2--2-2--2--2--0--0----0--|--2--2---2--0--0----0--|---0---0-----0------|
E|------------------------|---------------------------|-----------------------|----------------------|
B|--2-----2h3p2----5----5-|-2--------2-----2-----2----|--3-----3-----2----2---|--0---0----2----3-----|
G|-----2--------2--4----4-|-2--------2-----2-----2----|--2-----2-----2----2---|--1---1----2----4-----|
D|------------------------|---------------------------|-----------------------|----------------------|
A|--0---------------------|---------------------------|-----------------------|----------------------|
E|-----------------4—4----|-2---2-2-----2--0--0----0--|--2--2-----2--0--0---0-|----0----0----0-------|
video
Hide picture