Farhat Guitar
Online Private Lessons – Contact Me
Prof. Marcos Farhat
+(54 911) 6577-1480

BEATLES| Hey Jude
 Estilo:  Pop    
E|---------| |----------| |----------| |---------| |---------| |---------| F F7
B|-----3---| |-----3----| |------3---| |-----3---| |-----1---| |-----1---|
G|-----3---| |-----3----| |------3---| |-----3---| |-----3---| |-----3---| 
D|---3---3-| |---3---3--| |----3---3-| |---3---3-| |---2---2-| |---2---3-|
A|-1-------| |-0--------| |----------| |---------| |---------| |-3-------| 
E|---------| |----------| |--3-------| |-1-------| |-0-------| |---------|

E|---------| |----------| |----------| |---------| |---------| |---------| F F7 C7
B|-----3---| |-----3----| |------3---| |-----3---| |-----1---| |-----1---| 
G|-----3---| |-----3----| |------3---| |-----3---| |-----3---| |-----3---| 
D|---3---3-| |---3---3--| |----3---3-| |---3---3-| |---2---2-| |---2---3-| 
A|-1-------| |-0--------| |----------| |---------| |---------| |-3-------| 
E|---------| |----------| |--3-------| |-1-------| |-0-------| |---------|
video
Hide picture