Farhat Guitar
Online Private Lessons – Contact Me
Prof. Marcos Farhat
+(54 911) 6577-1480

Iron Maiden| Fear of the Dark
 Estilo:  Heavy Metal    
E|------5----|   |---| |----------|   |---| |-------------|-----------|----|-----|-----|-----|----| 
B|--------6-8|   |-5-| |-----6-3-5|   |---| |------3------|-----6---5-|----|-----|-----|-----|----|   
G|7-7-7------|   |---| |3-3-3-----|   |-5-| |--------3-5-3|-------7---|5--7|--7-5|--5-7|--7-5|--5-|   
D|-----------|   |---| |----------|   |---| |5-5-5--------|7-7-7------|--7-|-7---|-7---|-7---|-7--|
A|-----------|   |---| |----------|   |---| |-------------|-----------|----|-----|-----|-----|----|   
E|-----------|X2 |---| |----------|X2 |---| |-------------|-----------|----|-----|-----|-----|----|    


E|-------------|-----------|----|-----|-----|-------|
B|------3------|-----6---5-|----|-----|-----|-------|
G|--------3-5-3|-------7---|5--7|--7-5|--5-7|--7-5--| 
D|5-5-5--------|7-7-7------|--7-|-7---|-7---|-7-----|
A|-------------|-----------|----|-----|-----|-------|
E|-------------|-----------|----|-----|-----|-------|
video
Hide picture