Farhat Guitar
Online Private Lessons – Contact Me
Prof. Marcos Farhat
+(54 911) 6577-1480

Guns and Roses| Paradise City
 Estilo:  Hard Rock    
Eb|| |-------10---------10--|   |----8--------8--|   ||
Bb|| |----------------------|   |----------------|   ||
Gb|| |-10h11---12-10-11-----|   |-8h9--10-8-9----|   ||
Db|| |----------------------|   |----------------|   ||
Ab|| |----------------------|   |----------------|   ||
Eb|| |----------------------|X2 |----------------|X2 ||X3  
|-------10----|   |----8------|    |------6-|
|-------------|   |-----------|    |------6-|
|-10h11---12--|   |-8h9--10---|    |--6-7---|
|-------------|   |-----------|    |--------|
|-------------|   |-----------|    |--------|
|-------------|X4 |-----------|X2  |--------|
video
Hide picture