Farhat Guitar
Online Private Lessons – Contact Me
Prof. Marcos Farhat
+(54 911) 6577-1480

Led Zeppelin| Whole lotta love
 Estilo:     
E|----------12------------------------------||---------------------------------------|
B|-12----------15-12------------------------||-----3---------------------------------|
G|-14b16-------------15p14p12-14-12--14b16~-||-2/4—--4p2--0-2p0-0--2p0---------------|
D|------------------------------------------||-------------------------2p0-2p0-------|
A|------------------------------------------||---------------------------------2p0---|
E|------------------------------------------||-------------------------------------0-|

E|----------12-—-----------15-------||--------------------------------| 
B|-------12----15b17-15b17----15b17-||-17-20-20b24r20p17-17---20-17---| * Nearly at the same time
G|-14b16----------------------------||----------------------18--------|   Casi al mismo tiempo  
D|----------------------------------||--------------------------------|   
A|----------------------------------||--------------------------------|  
E|----------------------------------||--------------------------------|  

E|----19b21-19-18-17-15-17-15----||-------------------------------19-------|
B|-17-------------------------17-||-17-19-19b21----19b21-19b21-------17----|     
G|-------------------------------||----------------------------------------|
D|-------------------------------||----------------------------------------|
A|-------------------------------||----------------------------------------|
E|-------------------------------||----------------------------------------|
video
Hide picture