Farhat Guitar
Online Private Lessons – Contact Me
Prof. Marcos Farhat
+(54 911) 6577-1480

Metallica| One
 Estilo:  Heavy Metal    
E|---------------------------------------------------|-------------------------------------0-----|
B|----------------------------0h3p0--------0h3p0-----|----------------------------------0-----0--|
G|-------0--7-----0-----4--4---------4--4---------0--|--------0--10------0-----------0-----------|
D|----7--------7-----5-------------------------------|----10---------10--------9--9--------------|
A|-5-------------------------------------------------|-8--------------------7--------------------|
E|---------------------------------------------------|-------------------------------------------|
E|---------------------------------------------------|----------------------------------------|
B|----------------------------0h3p0--------0h3p0-----|----------------------------------0-----|
G|-------0--7-----0-----4--4---------4--4---------0--|--------0--10------0-----------0--------|
D|----7--------7-----5-------------------------------|----10---------10--------9--9-----------|
A|-5-------------------------------------------------|-8--------------------7--------------3--|
E|---------------------------------------------------|----------------------------------------|
video
Hide picture