Farhat Guitar
Online Private Lessons – Contact Me
Prof. Marcos Farhat
+(54 911) 6577-1480

Soundgarden| Black Hole Sun
 Estilo:     
e|-------12---------------10-------13--------------------12-|
B|----12----12----12----11------13----13----13-------12-----|
G|-12----------12----12------10----------10----10s12--------|
D|----------------------------------------------------------|
A|----------------------------------------------------------|
D|----------------------------------------------------------|
e|-------11----------------10----------------12----------10----------11-|
B|----11----11----11----10----10----10----12----------12----------13----|
G|-12----------12----12----------12----12-------12-10-------10-13-------|
D|----------------------------------------------------------------------|
A|----------------------------------------------------------------------|
D|----------------------------------------------------------------------|
video
Hide picture