Farhat Guitar
Online Private Lessons – Contact Me
Prof. Marcos Farhat
+(54 911) 6577-1480

Metallica| Fade to Black
 Estilo:  Heavy Metal    
E|-----------|-------------|-----------|---------------------------|
B|-----------|-------------|-----------|---------------------------|
G|-----------|-------------|-----------|-------------------------4-|
D|---------9-|--------12-11|---------7-|-9-9-9-7-7-7-5-5-5-4-4-4---|
A|---------7-|--------10-9-|---------5-|---------------------------|
E|-0-0-0-0---|0-0-0-0------|-0-0-0-0---|---------------------------|
E|-----------|-------------|-----------|----------------------------|
B|-----------|-------------|-----------|----------------------------|
G|-----------|-------------|-----------|----------------------------|
D|---------9-|--------12-11|---------7-|-9-9-9-7-7-7-5-5-5-4-4-4h5--|
A|---------7-|--------10-9-|---------5-|----------------------------|
E|-0-0-0-0---|0-0-0-0------|-0-0-0-0---|----------------------------|
video
Hide picture