Farhat Guitar
Online Private Lessons – Contact Me
Prof. Marcos Farhat
+(54 911) 6577-1480

Extreme| More Than Words
 Estilo:  Hard Rock    
E|---3-----3---|--3-----3-0---|--0-----3-0---|--0---2---3---|-0-3-----3---|--3-----3-0---|--0-----3-0---|
B|---3-x-3-3-x-|3-3-x---3-3-x-|1-1-x---1-1-x-|1-1-x-3---3-x-|-3-3-x-3-3-x-|3-3-x---3-3-x-|1-1-x---1-1-x-|
G|---0-x-0-0-x-|0-0-x---0-0-x-|0-0-x---0-0-x-|0-0-x---2---x-|-0-0-x-0-0-x-|0-0-x---0-0-x-|0-0-x---0-0-x-|
D|-----x-----x-|----x-------x-|----x-------x-|----x-0-----x-|-----x-0---x-|2---x-------x-|2---x-------x-|
A|-------2-----|3-----3-3-3---|0-----0-0-0---|3-------------|-------2-----|3-----3-3-3---|0-----0-0-0---|
E|-3-----------|--------------|--------------|--------------|-3-----------|--------------|--------------|

E|--0---2---3---|-0-3-----3---|--3--3-x-3-x-|0--0--0-0-x-x-|3-x--|2--3---|--3-----3---|--3-----3-0---|--0-----3-0---|
B|1-1-x-3---3-x-|-3-3-x-3-3-x-|3-3--3-x-3-x-|1--1--1-1-x-x-|3-x--|3--3-x-|--3-x-3-3-x-|3-3-x---3-3-x-|1-1-x---1-1-x-|
G|0-0-x---2---x-|-0-0-x-0-0-x-|0-0--0-x-0-x-|0--0--0-0-x-x-|0-x--|2--2-x-|--0-x-0-0-x-|0-0-x---0-0-x-|0-0-x---0-0-x-|
D|2---x-0-----x-|-----x-0---x-|2----2-x-2-x-|2--2--2-2-x-x-|2-x--|0--0-x-|----x-0---x-|2---x-------x-|2---x-------x-|
A|3-------------|-------2-----|3----3---3---|0--0--0-0-----|3----|-------|--------2---|3-----3-3-3---|0-----0-0-0---|
E|--------------|-3-----------|-------------|--------------|-----|-------|3-----3-----|--------------|--------------|

E|--0---|-2-|-----0h2---|--------3-------|--------0------|---------0-------|----------0----|---------0---------|
B|1-1-x-|-3-|---------3-|----3-----3-----|----3-----3----|-----3-----3-----|--------0---0--|-------1---1-------|
G|0-0-x-|-2-|---2-------|--0---0-----0---|--2---2-----2--|---2---2-----2---|------2-------2|-----0-------0-----|
D|2---x-|-0-|-0---------|----------------|---------------|-----------------|----2----------|---2-----------2---|
A|3-----|---|-----------|----------------|---------------|-----------------|--2------------|-0---------------0-|
E|------|---|-----------|3-------------3-|2-------------2|-1-------------1-|0--------------|-------------------|
video
Hide picture