Farhat Guitar
Online Private Lessons – Contact Me
Prof. Marcos Farhat
+(54 911) 6577-1480

Jimi Hendrix Experience| Foxy Lady
 Estilo:     
E|-----5-5------5-5-----5-x---------|-----5--5-----5-5-----5-5-x---------|-----5-5-----5-5------5-------------|
B|-----5-5------5-5-----5-x---------|-----5--5-----5-5-----5-5-x-----4-4-|-----5-5-----5-5------5-------4b5r4-|
G|----------------------3-----------|--------------------------------4-4-|------------------------------4b5r4-|
D|---------4-4----------4-----------|----------4-4-------------------4-4-|---------4-4------------4-----4b5r4-|
A|--------------------------1-2-3-4-|----------------------------0-2-----|--------------------------0-2-------|
E|-2-2--------------2-2-------------|-2-2--------------2-2---------------|-2-2--------------2-2---------------|

E|-----5-5-x-----5-------------------------|-----5-5-----5-x------5-------------|-----5-5-----5-5-5-----5---------------|
B|-----5-5-x-----5-x-x-----5-5-------4-4-4-|-----5-5-----5-x------5-------4-4-4-|-----5-5-----5-5-5-----5--x-x----------|
G|-------------------------3-3-x-----4-4-4-|------------------------x-----4-4-4-|-------------x-x-x-----x--x-x----------|
D|-----------4-4-----------4-4-x-----4-4-4-|---------4-4------------------4-4-4-|---------4-4-4-4-4-----4--x-x-----2v-0-|
A|-------------------------------0-2-------|--------------------------0-2-------|------------------------------2s4------|
E|-2-2-----------------2-2-----------------|-2-2--------------2-2---------------|-2-2---------------2-2-----------------|
video
Hide picture