Farhat Guitar
Online Private Lessons – Contact Me
Prof. Marcos Farhat
+(54 911) 6577-1480

Queen| Crazy Little Thing Called Love
 Estilo:     
 E|-9/10-1010-1010-10----------------------------------------13-------|
 B|-9/10-1010-1010-10-----13b15-pb15---15r13p11-13-11~—13b15----------|
 G|-------------------------------------------------------------------|
 D|-------------------------------------------------------------------|
 A|-------------------------------------------------------------------|
 E|-------------------------------------------------------------------|
 E|-9/10-10-10---------------------------1010--|--------13-----13-------------------------13--|
 B|-9/10----10—12x-12-10-----------10-12-1010--|-13b15---pb15----pb15r13p11--13-11~-13b15-----|
 G|----------------12-----11-10h11-------------|----------------------------------------------|
 D|--------------------------------------------|----------------------------------------------|
 A|--------------------------------------------|----------------------------------------------|
 E|--------------------------------------------|----------------------------------------------|
 E|-11/12---12------12---------------------------------------------|
 B|-11/12------15------b14-----------------------------------------|
 G|--------------------------14-11------14---16b17r16p14-16---14---|
 D|----------------------------------14----------------------------|
 A|----------------------------------------------------------------|
 E|----------------------------------------------------------------|
video
Hide picture