Farhat Guitar
Online Private Lessons – Contact Me
Prof. Marcos Farhat
+(54 911) 6577-1480

Lynyrd Skynyrd| Sweet Home Alabama
 Estilo:     
 e|-------------------------------------------------------------------------------------|
 B|-------------------------------------------------------------------------------------|
 G|---------------------------------------------------------0-----0-----0-----0-----0---|
 D|-7-7-9-7-5-5-7-5-------------0h2p0---7-7-9-7-5-5-7-5-0p2---0p2---0p2---0p2---0p2---3-|
 A|-5-5-5-5-3-3-3-3-5-5-5-7-0h2-------3-5-5-5-5-3-3-3-3---------------------------------|
 E|-----------------3-3-3-3-------------------------------------------------------------|
 e|-------------------------------------------------------------1-0-|
 B|-------------------------------------------------------------1-1-|
 G|-------------------------------------------------------------2-0-|
 D|-7-7-9-7-5-5-7-5-------------0h2p0---7-7-9-7-5-5-7-5---------3-2-|
 A|-5-5-5-5-3-3-3-3-5-5-5-7-0h2-------3-5-5-5-5-3-3-3-3-5-5-5-7-3-3-|
 E|-----------------3-3-3-3-----------------------------3-3-3-3-1---|
video
Hide picture