Farhat Guitar
Online Private Lessons – Contact Me
Prof. Marcos Farhat
+(54 911) 6577-1480

Pink Floyd| Shine on you crazy diamond
 Estilo:  Rock    
e|--------0--------0--------0--------0--------0--------0---------------------------------0--------------|
B|----6--------6--------6--------6--------6--------6---------------------------------6-------6----------|
G|------0--------0--------0--------0--------0--------0---------------------------------0-------0-8—-8-7-|
D|--8--------8--------8--------8--------8--------8--------3-3-3-3-3-3-3-3-3-3-3/5—-8-------8------------|
A|--------------------------------------------------------3-3-3-3-3-3-3-3-3-3-3/5-----------------------|
E|--------------------------------------------------------1-1-1-1-1-1-1-1-1-1-1/3-----------------------|

e|---------------------------------0--|
B|-----------------------------6------|
G|-------------------------------0----|
D|--3-3-3-3-3-3-3-3-3-3-3/5--8--------|
A|--3-3-3-3-3-3-3-3-3-3-3/5-----------|
E|--1-1-1-1-1-1-1-1-1-1-1/3-----------|
video
Hide picture