Farhat Guitar
Online Private Lessons – Contact Me
Prof. Marcos Farhat
+(54 911) 6577-1480

Soda Stereo| Persiana Americana
 Estilo:  Pop    
E---------------------------------------------------------------|
B---------0-----0-----0-----0--0--------3-----3-----3-----3--3--|
G---------0-----0-----0-----0--0--0--0--0--0--0--0--0--0--0--0--|
D---2--2--2--2--2--2--2--2--2--2--2--2--2--2--2--2--2--2--2--2--|
A---2--2-----2-----2-----2--------3--3-----3-----3-----3--------|
E---0--0-----0-----0-----0--------------------------------------|x2
E---------------------------------------------------------------|---10--10--10--10--10--10--10--10--10--10--10--10--10--10--10--10--|
B---------3-----3-----3-----3--3--------3-----3-----3-----3--3--|---10--10--10--10--8---8---8---8---7---7---7---7---8---8---8---8---|
G---------0-----0-----0-----0--0--0--0--0--0--0--0--0--0--0--0--|-------------------------------------------------------------------|
D---2--2--2--2--2--2--2--2--2--2--2--2--2--2--2--2--2--2--2--2--|-------------------------------------------------------------------|
A---2--2-----2-----2-----2--------3--3-----3-----3-----3--------|-------------------------------------------------------------------|
E---0--0-----0-----0-----0--------------------------------------|-------------------------------------------------------------------|
video
Hide picture