Farhat Guitar
Online Private Lessons – Contact Me
Prof. Marcos Farhat
+(54 911) 6577-1480

Emerson, Lake & Palmer| The Sage
 Estilo:  Acústico    
E|-------0--1--0------|-------0----------|-------------------|---------0---|
B|-----3-----------1--|-----0---0-----0--|--------0--------0-|-------0-----|
G|---2----------------|------------------|------5--------5---|-----5-------|
D|-0------------------|---2---------2----|----2--------3-----|---2---------|
A|---------------3----|------------------|--0--------0-------|-0-----------|
E|--------------------|-4---------4------|-------------------|-------------|

E|----------0-0p1-|-------------0----------|----------1---------------|-------------5------|
B|-------3--------|-------------0----------|-------1-----1------------|----------5--5------|
G|----2-----------|----------1--1----------|----4-----------4-----4---|-------5-----5------|
D|-0--------------|-------2-----2----------|-3-----------------3------|----2--------2------|
A|----------------|----2-------------------|--------------------------|-0-----------0------|
E|----------------|-0----------------------|--------------------------|--------------------|
video
Hide picture