Farhat Guitar
Online Private Lessons – Contact Me
Prof. Marcos Farhat
+(54 911) 6577-1480

Billy Idol| Dancing with Myself
 Estilo:     
e|---------------------------------------------------------------------|
B|---------------------------------------------------------------------|
G|-------------------------4v-4-4-4-4-------------------------4v-4b6r4-|
D|---------2-2-2-2-4-4-4-4--------------------2-2-2-2-4-4-4-4----------| x3
A|-2-2-2-2----------------------------2-2-2-2--------------------------|
E|---------------------------------------------------------------------|
e|------------------------------------------------------------------|
B|------------------------------------------------------------------|
G|-------------------------4v-4-4-4-----4-4-----4-4-----4-4-----4-4-|
D|---------2-2-2-2-4-4-4-4----------4-4-----4-4-----4-4-----4-4-----|
A|-2-2-2-2----------------------------------------------------------|
E|------------------------------------------------------------------|
video
Hide picture