Farhat Guitar
Online Private Lessons – Contact Me
Prof. Marcos Farhat
+(54 911) 6577-1480

Iron Maiden| Afraid to Shoot Strangers
 Estilo:  Heavy Metal    
E|---------------|| x4 |---------------|| x4 |---------------|| x4 |---------------|| x4  
B|---------------||    |---------------||    |---------------||    |---------------||    
G|---------------||    |------6---6----||    |------7---7----||    |------4---4----||    
D|------2---2----||    |----6---6---6--||    |----7---7---7--||    |----4---4---4--||    
A|----2---2---2--||    |--4------------||    |--5------------||    |--2------------||    
E|--0------------||    |---------------||    |---------------||    |---------------||    
E|---------------|| x4 |---------------|| x4 |---------------|| x4 |---------------|| x4  
B|---------------||    |---------------||    |---------------||    |---------------||    
G|---------------||    |------6---6----||    |------7---7----||    |------4---4----||    
D|------2---2----||    |----6---6---6--||    |----7---7---7--||    |----4---4---4--||    
A|----2---2---2--||    |--4------------||    |--5------------||    |--2------------||    
E|--0------------||    |---------------||    |---------------||    |---------------||    
video
Hide picture