Farhat Guitar
Online Private Lessons – Contact Me
Prof. Marcos Farhat
+(54 911) 6577-1480

Led Zeppelin| Black Dog
 Estilo:     
E|---------------|--------------------|----------------------| |---------------|   |----------| 
B|---------------|--------------------|----------------------| |---------------|   |----------|  
G|-----------5b--|-7-9--5h7p5-----5b--|----------------------| |---------------|   |----------|  
D|---5-6-7------7|------------7-7----7|-5-7-7-----------2--2-| |-----------5b--|   |----------|
A|-7-------7-----|--------------------|-------5-7--3-5--0--0-| |---5-6-7------7|   |---5-6-7-5| 
E|---------------|--------------------|----------------------| |-7-------7-----|X3 |-7--------|
E|---------------|--------------------|----------------------|
B|---------------|--------------------|----------------------|
G|-----------5b--|-7-9--5h7p5-----5b--|----------------------|
D|---5-6-7------7|------------7-7----7|-5-7-7-----------2--2-|
A|-7-------7-----|--------------------|-------5-7--3-5--0--0-|
E|---------------|--------------------|----------------------|
video
Hide picture