Farhat Guitar
Online Private Lessons – Contact Me
Prof. Marcos Farhat
+(54 911) 6577-1480

Iron Maiden| Run to the Hills
 Estilo:  Heavy Metal    
E|-------------------|--------------------|----------------------|-----------------||
B|-------------------|--------------------|----------------------|-----------------||
G|--9-----9-----9----|--11----11----11----|--12-----12-----12----|--14-----14v-----||
D|--7-----7-----7----|--9-----9-----9-----|--12-----12-----12----|--14-----14v-----||
A|----0-0---0-0---0--|----0-0---0-0----0--|-----0-0----0-0----0--|-----0-0---------||
E|-------------------|--------------------|----------------------|-----------------|| x3 

E|-------------------|--------------------|----------------------|-----------------|
B|-------------------|--------------------|----------------------|-----------------|
G|--9-----9-----9----|--11----11----11----|--12-----12-----12----|--14v------------|
D|--7-----7-----7----|--9-----9-----9-----|--12-----12-----12----|--14v------------|
A|----0-0---0-0---0--|----0-0---0-0----0--|-----0-0----0-0----0--|-----------------|
E|-------------------|--------------------|----------------------|-----------------|
video
Hide picture