Farhat Guitar
Online Private Lessons – Contact Me
Prof. Marcos Farhat
+(54 911) 6577-1480

Chuck Berry| Johnny B. Goode
 Estilo:  Rock and roll    
E|--------5s6-6-6-5s6-6-6-5s6-6-6-------------------------------------------------------|
B|----6-8-5s6-6-6-5s6-6-6-5s6-6-6-9-8-6----------------------------6-8-6--------------6-|
G|-s7-----------------------------------6h7---------------------s7-7-7-7-7s5-3---8b10---|
D|------------------------------------------8-8-8-8-8-8-8-8-8-8----------------5--------|
A|----------------------------------------------8-8-8-8-8-8-8-8-------------------------|
E|--------------------------------------------------------------------------------------|

E|-------------6---------------------------6-------------6------6-------6-------8-6-------|
B|------6------6------6------6------6------6------6------6------6---------9-8-6-----9-8-6-|
G|-8b10---8b10---8b10---8b10---8b10---8b10---8b10---8b10---8b10----8b10-------------------|
D|----------------------------------------------------------------------------------------|
A|----------------------------------------------------------------------------------------|
E|----------------------------------------------------------------------------------------|

E|-----6----------------------------|
B|-----6-9-8-6------6------6--------|
G|-8-6-7-------8b10---8b10---8-6h7--|
D|--------------------------------8-|
A|----------------------------------|
E|----------------------------------|
video
Hide picture