Farhat Guitar
Online Private Lessons – Contact Me
Prof. Marcos Farhat
+(54 911) 6577-1480

Franja de Gaza| Jump
 Estilo:  Hard Rock    
Eb|-----------------|---------------------|----------------------------------|  
Bb|-----------------|---------------------|----------------------------------|    
Gb|-----------------|---------------------|----------------------------------| 
Db|-------3-----3p2-|---------------------|-----------------3-2--------------|  
Ab|-0-0-0---0-0-----|-------3-----2h3-----|-------3-x-2-3-2-----5-3-2-3b5r3--|
Eb|-----------------|-1-1-1---1-1---------|--0--0----------------------------|
	 
Eb|-----------------|---------------------|---------------------| |-------| 
Bb|-----------------|---------------------|---------------------| |-------| 
Gb|-----------------|---------------------|---------------------| |-------| 
Db|-------3-----3p2-|---------------------|-----------------3-2-| |-2h3p2-| 
Ab|-0-0-0---0-0-----|-------3-----2h3-----|-------3-x-2-3-------| |-------| 
Eb|-----------------|-1-1-1---1-1---------|--0--0---------------| |-------|x4

Eb|-----------------|---------------------|----------------------------------|  
Bb|-----------------|---------------------|----------------------------------|    
Gb|-----------------|---------------------|----------------------------------| 
Db|-------3-----3p2-|---------------------|-----------------3-2--------------|  
Ab|-0-0-0---0-0-----|-------3-----2h3-----|-------3-x-2-3-2-----5-3-2-3b5r3--|    
Eb|-----------------|-1-1-1---1-1---------|--0--0----------------------------|

Eb|-----------------|---------------------|--------------------------|  
Bb|-----------------|---------------------|--------------------------|    
Gb|-----------------|---------------------|--------------------------| 
Db|-------3-----3p2-|---------------------|--------------------------|  
Ab|-0-0-0---0-0-----|-------3-----2h3-----|-------3-x-2-3-2-3/8-7-7--|    
Eb|-----------------|-1-1-1---1-1---------|--0--0--------------------|
video
Hide picture