Farhat Guitar
Online Private Lessons – Contact Me
Prof. Marcos Farhat
+(54 911) 6577-1480

Soda Stereo| Profugos
 Estilo:  Pop    
E|-5--|-5--5--5-5-|-7--7--7-7-|-7--7--7-7-|-5--5--5-5-|-5--5--5-5-|-7--7--7-7-|-7--7--7--7---7--7-----| 
B|-7--|-5--5--5-5-|-8--8--8-8-|-7--7--7-7-|-7--7--7-7-|-5--5--5-5-|-8--8--8-8-|-8--8--8--8---8--8-----| 
G|-7--|-5--5--5-5-|-9--9--9-9-|-7--7--7-7-|-7--7--7-7-|-5--5--5-5-|-9--9--9-9-|-7--7--7--7---7--7-----| 
D|-7--|-7--7--7-7-|-9--9--9-9-|-9--9--9-9-|-7--7--7-7-|-7--7--7-7-|-9--9--9-9-|-9--9--9--9---9--9-----|
A|-5--|-7--7------|-7--7------|-9--9------|-5--5------|-7--7------|-7--7------|-10-10-10-10--10-10----|
E|----|-----------|-----------|-----------|-----------|-----------|-----------|-----------------------|
E|-5--5--5-5-|-5--5--5-5-|-7--7--7-7-|-7--7--7-7-|-5--5--5-5-|-5--5--5-5-|-7--7--7-7-|-7--7--7--7---7--7-----| 
B|-7--7--7-7-|-5--5--5-5-|-8--8--8-8-|-7--7--7-7-|-7--7--7-7-|-5--5--5-5-|-8--8--8-8-|-8--8--8--8---8--8-----| 
G|-7--7--7-7-|-5--5--5-5-|-9--9--9-9-|-7--7--7-7-|-7--7--7-7-|-5--5--5-5-|-9--9--9-9-|-7--7--7--7---7--7-----| 
D|-7--7--7-7-|-7--7--7-7-|-9--9--9-9-|-9--9--9-9-|-7--7--7-7-|-7--7--7-7-|-9--9--9-9-|-9--9--9--9---9--9-----|
A|-5--5------|-7--7------|-7--7------|-9--9------|-5--5------|-7--7------|-7--7------|-10-10-10-10--10-10----|
E|-----------|-----------|-----------|-----------|-----------|-----------|-----------|-----------------------|
E|-5--5--5-5-|-5--5--5-5-|-7--7--7-7-|-7--7--7-7-|-5--5--5-5-|-5--5--5-5-|-7--|-7--7--7--7---7--7--7--7--7---| 
B|-7--7--7-7-|-5--5--5-5-|-8--8--8-8-|-7--7--7-7-|-7--7--7-7-|-5--5--5-5-|-8--|-7--8--7--8---7--8--7--8--7---| 
G|-7--7--7-7-|-5--5--5-5-|-9--9--9-9-|-7--7--7-7-|-7--7--7-7-|-5--5--5-5-|-9--|-7--9--7--9---7--9--7--9--7---| 
D|-7--7--7-7-|-7--7--7-7-|-9--9--9-9-|-9--9--9-9-|-7--7--7-7-|-7--7--7-7-|-9--|-9--10-9--10--9--10-9--10-9---|
A|-5--5------|-7--7------|-7--7------|-9--9------|-5--5------|-7--7------|-7--|-10----10-----10----10----10--|
E|-----------|-----------|-----------|-----------|-----------|-----------|----|------------------------------|
video
Hide picture