Farhat Guitar
Online Private Lessons – Contact Me
Prof. Marcos Farhat
+(54 911) 6577-1480

Franja de Gaza| Jump
 Estilo:  Hard Rock    
Eb|--------5---------|------------5--5-5---|------------5---5-5--|-7---7--7---7-7-7---|  
Bb|--------5--5------|------6---6-6--6-6---|------5---5-5---6-6--|-10--10-10--9-9-9---|    
Gb|-5---5--5--5-5----|-x-x--5---5-5--5-5---|-x-x--4---4-4---4-4--|-9---9--9---9-9-9---| 
Db|-7---7--7--7-7----|-x-x--3---3-3--3-3---|-x-x--2---2-2---2-2--|-9---9--9---9-9-9---|  
Ab|-7---7-----7-7----|-x-x—-3---3------3---|-x-x--2---2-------2--|-7---7--7---7-7-7---|    
Eb|-5---5-------5----|---------------------|---------------------|--------------------|	 

Eb|-------------5---------|------------5--5-5---|------------5---5-5--|-12—---12-12-—12-----|  
Bb|-------------5--5------|------6---6-6--6-6---|------5---5-5---6-6--|-12----12-12—-12-12--|    
Gb|-x-x--5---5--5--5-5----|-x-x--5---5-5--5-5---|-x-x--4---4-4---4-4--|-14-14-14-14--14-14--| 
Db|-x-x--7---7--7--7-7----|-x-x--3---3-3--3-3---|-x-x--2---2-2---2-2--|-14-14—14—14--14-14--|  
Ab|-x-x--7---7-----7-7----|-x-x—-3---3------3---|-x-x--2---2-------2--|-14-14----14—-14-14--|    
Eb|-x-x--5---5-------5----|---------------------|---------------------|-12-12----12-----12--|
video
Hide picture