Farhat Guitar
Online Private Lessons – Contact Me
Prof. Marcos Farhat
+(54 911) 6577-1480

Nirvana| The Man Who Sold the World
 Estilo:     
 Eb|---1-| ||--1-1-x-1----1-1-0--1-1-1-1--1-1-1--|---1-1-x-1---1-1-0--1-1-x-1-1-1-1----|
 Bb|---1-| ||--1-1-x-1----1-1-0--1-1-1-1--1-1-1--|---3-3-x-3---3-3-3--3-3-x-3-3-3-3----|
 Gb|---2-| ||0-2-2-x-2----2-2-2--2-2-2-2--2-2-2--|---2-2-x-2---2-2-2--2-2-x-2-2-2-2----|
 Db|---3-| ||--3-3-x-3----3-3-3--3-3-3-3--3-3-3--|---0-0-x-0---0-0-0--0-0-x-0-0-0-0----|
 Ab|---3-| ||0-3-3-x-3----3-3-3--3-3-3-3--3-3-3--|-------------------------------------|
 Eb|---1-| ||--1-1-x-1----1-1-0--1-1-1-1--1-1-1--|-------------------------------------|
 Eb|--0-0-x-0---0-0-0--0-0—x-0--0-0-0---|--1-1-x-1---1-1-0--1-1-x-1--1-1-1---||
 Bb|--2-2-x-2---2-2-0--2-2—x-2--2-2-2---|--3-3-x-3---3-3-3--3-3-x-3--3-3-3---||
 Gb|--2-2-x-2---2-2-2--2-2-x-2--2-2-2---|--3-3-x-3---3-3-3--3-3-x-3--3-3-3--0||
 Db|--2-2-x-2---2-2-2--2-2-x-2--2-2-2---|--0-0-x-0---0-0-0--0-0-x-0--0-0-0---||
 Ab|--0-0-x-0---0-0-0--0-0-x-0--0-0-0---|-----------------------------------0||
 Eb|------------------------------------|------------------------------------|| X3
video
Hide picture