Farhat Guitar
Online Private Lessons – Contact Me
Prof. Marcos Farhat
+(54 911) 6577-1480

Nirvana| In Bloom
 Estilo:     
E|-------------------------------------------------------------------------------------------------------|
B|----16b18—(18-18-18-18-18-18)—----16-------------------------------------------------------------------|
G|----15b17—(17-17-17-17-17-17)—15b---------12-----------------------------------------------------------|
D|------------------------------15b----/11v----11-13b-13-------11-13-13b-13v----11-13-11-13-13b-11-13-13-|
A|-------------------------------------------------------11-13-------------------------------------------|
E|-------------------------------------------------------------------------------------------------------|
E|-----------------------------------------------------------------------------------------------------------------------|
B|-18b----------------------------------------------16v---16----16--------12----12----12s11-11s10-10s9-9s8-8s7-----------|
G|-17b-10-12-10-12s13-12-13s15-13-15-15b17-15b17v-------pb17--pb17--11-11----11----11------------------------------------|
D|-----------------------------------------------------------------------------------------------------------------------|
A|-----------------------------------------------------------------------------------------------------------------------|
E|-----------------------------------------------------------------------------------------------------------------------|
video
Hide picture