Farhat Guitar
Online Private Lessons – Contact Me
Prof. Marcos Farhat
+(54 911) 6577-1480

Soda Stereo| Cuando Pase El Temblor
 Estilo:  Pop    
E|-5-5-5-5-5-5--5-|5-5-5-5-5-5--5|-5-5-5-5-5-5--5-|7-7-7-7-7-7--7|-8-8-8-8-8-8-8-8-|8--8--8--8--8--8--|8-8-8-8-8-8-8-|3-3-3-3-3-3-3-|
B|-5-5-5-5-5-5--5-|3-3-3-3-3-3--3|-6-6-6-6-6-6--6-|8-8-8-8-8-8--8|-8-8-8-8-8-8-8-8-|8--8--8--8--8--8--|8-8-8-8-8-8-8-|3-3-3-3-3-3-3-|
G|-5-5-5-5-5-5--5-|4-4-4-4-4-4--4|-5-5-5-5-5-5--5-|9-9-9-9-9-9--9|-9-9-9-9-9-9-9-9-|10-10-10-10-10-10-|9-9-9-9-9-9-9-|3-3-3-3-3-3-3-|
D|----------------|--------------|----------------|--------------|-----------------|------------------|--------------|--------------|
A|----------------|--------------|----------------|--------------|-----------------|------------------|--------------|--------------|
E|----------------|--------------|----------------|--------------|-----------------|------------------|--------------|--------------|
E|-3-3-3-3-3-3-3-|-3-3-3-3-3-3-3-|-5-5-5-5-5-5-5-|-5-5-5-5-|--2-2--2--2-2--2--2-2--2--2-2--2--|
B|-5-5-5-5-5-5-5-|-3-3-3-3-3-3-3-|-7-7-7-7-7-7-7-|-6-6-6-6-|--5-5--5--5-5--5--5-5--5--5-5--5--|
G|-3-3-3-3-3-3-3-|-3-3-3-3-3-3-3-|-5-5-5-5-5-5-5-|-5-5-5-5-|--2-2--2--2-2--2--2-2--2--2-2--2--|
D|---------------|---------------|---------------|---------|----------------------------------|
A|---------------|---------------|---------------|---------|----------------------------------|
E|---------------|---------------|---------------|---------|----------------------------------|
video
Hide picture