Farhat Guitar
Online Private Lessons – Contact Me
Prof. Marcos Farhat
+(54 911) 6577-1480

Pink Floyd| Is there Anybody Out There
 Estilo:     
E|-------0---------|-------0---------|-------0---------|-------0----------------|----------0-| 
B|-----1---1-------|-----1---1-------|-----1---1-------|-----1---1------------1-|--------1---| 
G|---2-------2---2-|---2-------2---2-|---2-------2---2-|---2-------2---2----2---|------2-----| 
D|-2-----------2---|-3-----------3---|-4-----------4---|-3-----------3----3-----|--2-0-------| 
A|-----------------|-----------------|-----------------|------------------------|------------| 
E|-----------------|-----------------|-----------------|------------------------|------------|
E|-------0---------|---------0-------|-----------------|---------0-------|---------0----| 
B|-----1---1-------|-------1---1-----|-------1---------|-------1---1-----|-------1------| 
G|---2-------2-----|-----2-------2---|-----2---2-------|-----2-------2---|-----2--------| 
D|-0---------------|---2-----------2-|---2-------2---2-|---2-----------2-|---2----------| 
A|-------------3-2-|-0---------------|-0-----------0---|-0---------------|-0------------| 
E|-----------------|-----------------|-----------------|-----------------|--------------|
 
video
Hide picture