Farhat Guitar
Online Private Lessons – Contact Me
Prof. Marcos Farhat
+(54 911) 6577-1480

Guns and Roses| Sweet Child o’ Mine
 Estilo:  Hard Rock    
Eb||----|---------15---14---||----|---------15---14---||----|---------15---14----||----|---------15--14----||
Bb||----|-15----------------||----|-15----------------||----|-15-----------------||----|-15----------------|| 
Gb||----|---14-12---14---14-||----|---14-12---14---14-||-12-|---14-12----14---14-||----|---14-12---14---14-||
Db||-12-|-------------------||-14-|-------------------||----|--------------------||-12-|-------------------|| 
Ab||----|-------------------||----|-------------------||----|--------------------||----|-------------------||
Eb||----|-------------------||----|-------------------||----|--------------------||----|-------------------||X3 

Eb|----|--------15--14---|  |---|-------15--14---|  |---|-------15--14--|  |12-------|12--14---|15--14---|12--------| 
Bb|----|-15--------------|  |---|15--------------|  |---|15-------------|  |----15---|---------|---------|-----15-15| 
Gb|----|---14-12--14--14-|  |---|--14-12--14--14-|  |12-|--14-12--14--14|  |--14--14-|--14--14-|--14—-14-|--14------|
Db|-12-|-----------------|  |14-|----------------|  |---|---------------|  |---------|---------|---------|----------| 
Ab|----|-----------------|  |---|----------------|  |---|---------------|  |---------|---------|---------|----------| 
Eb|----|-----------------|x2|---|----------------|x2|---|---------------|x2|---------|---------|---------|----------|
video
Hide picture