Farhat Guitar
Online Private Lessons – Contact Me
Prof. Marcos Farhat
+(54 911) 6577-1480

Iron Maiden| Run to the Hills
 Estilo:  Heavy Metal    
E||-----|-------------------|-----------------|----------------|----------------||
B||-----|-------------------|-----------------|----------------|----------------||
G||-----|--7h9--7h9---7-----|--7--7---7h9-----|--5--5--5h7-----|--0--0--0h2-----||
D||-----|----7----7---7-----|--7--7---7-------|--5--5--5h7-----|--0--0--0h2-----||
A||--0--|-----------------0-|---------------0-|--------------0-|--------------0-||
E||-----|-------------------|-----------------|----------------|----------------|| x4

E|-------------------|-----------------|----------------|------------|-----|
B|-------------------|-----------------|----------------|--------3---|-----|
G|--7h9--7h9---7-----|--7--7---7h9-----|--5--5--5h7-----|--0--0--2---|-----|
D|----7----7---7-----|--7--7---7-------|--5--5--5h7-----|--0--0--0---|-----|
A|-----------------0-|---------------0-|--------------0-|------------|-----|
E|-------------------|-----------------|----------------|------------|-----|
video
Hide picture