Farhat Guitar
Online Private Lessons – Contact Me
Prof. Marcos Farhat
+(54 911) 6577-1480

BEATLES| Twist and Shout
 Estilo:  Pop    
|---------------------------------------------------------------------------------------|
|---------------3-3-----------------------3-----------------------3---------------------|
|---------------2-2-----------------------2-----------------------2---------------------| 
|-2-2-2-2-2-2-2-0-0-----2-2-2-2-2-------0-------2-2-2-2-2-------0-------2-2-2-2-2-2-2-2-|
|-0-0-0-0-0-0-0-------2-0-0-0-0-0-0-2-4-------2-0-0-0-0-0-0-2-4-------2-0-0-0-0-0-0-0-0-|
|-------------------3-----------------------3-----------------------3-------------------|
|-----------------|    |-------------5----|
|-----------------|    |-------------5----|
|-----------------|    |-------------5----|
|-2-2-2-2-2-2-2-2-| x3 |-------------5----|
|-0-0-0-0-0-0-0-0-|    |-0-1-2-3-4-5-5----|
|-----------------|    |-------------5----|
video
Hide picture